0
SECTION
2
HEADER
9
$INSUNITS
70
4
9
$ACADVER
1
AC1014
9
$HANDSEED
5
FFFF
0
ENDSEC
0
SECTION
2
TABLES
0
TABLE
2
VPORT
5
8
100
AcDbSymbolTable
0
ENDTAB
0
TABLE
2
LTYPE
5
5
100
AcDbSymbolTable
0
LTYPE
5
14
100
AcDbSymbolTableRecord
100
AcDbLinetypeTableRecord
2
BYBLOCK
70
0
0
LTYPE
5
15
100
AcDbSymbolTableRecord
100
AcDbLinetypeTableRecord
2
BYLAYER
70
0
0
ENDTAB
0
TABLE
2
LAYER
5
2
100
AcDbSymbolTable
70
2
0
LAYER
5
50
100
AcDbSymbolTableRecord
100
AcDbLayerTableRecord
2
0
70
0
6
CONTINUOUS
0
ENDTAB
0
TABLE
2
STYLE
5
3
100
AcDbSymbolTable
70
1
0
STYLE
5
11
100
AcDbSymbolTableRecord
100
AcDbTextStyleTableRecord
2
STANDARD
70
0
0
ENDTAB
0
TABLE
2
VIEW
5
6
100
AcDbSymbolTable
70
0
0
ENDTAB
0
TABLE
2
UCS
5
7
100
AcDbSymbolTable
70
0
0
ENDTAB
0
TABLE
2
APPID
5
9
100
AcDbSymbolTable
70
2
0
APPID
5
12
100
AcDbSymbolTableRecord
100
AcDbRegAppTableRecord
2
ACAD
70
0
0
ENDTAB
0
TABLE
2
DIMSTYLE
5
A
100
AcDbSymbolTable
70
1
0
ENDTAB
0
TABLE
2
BLOCK_RECORD
5
1
100
AcDbSymbolTable
70
1
0
BLOCK_RECORD
5
1F
100
AcDbSymbolTableRecord
100
AcDbBlockTableRecord
2
*MODEL_SPACE
0
BLOCK_RECORD
5
1B
100
AcDbSymbolTableRecord
100
AcDbBlockTableRecord
2
*PAPER_SPACE
0
ENDTAB
0
ENDSEC
0
SECTION
2
BLOCKS
0
BLOCK
5
20
100
AcDbEntity
100
AcDbBlockBegin
2
*MODEL_SPACE
0
ENDBLK
5
21
100
AcDbEntity
100
AcDbBlockEnd
0
BLOCK
5
1C
100
AcDbEntity
100
AcDbBlockBegin
2
*PAPER_SPACE
0
ENDBLK
5
1D
100
AcDbEntity
100
AcDbBlockEnd
0
ENDSEC
0
SECTION
2
ENTITIES
0
SPLINE
5
100
100
AcDbEntity
8
0
100
AcDbSpline
70
0
71
2
72
6
73
3
74
0
42
0.000000001
43
0.0000000001
44
0.0000000001
40
0.12284308376604734
40
0.12284308376604734
40
0.12284308376604734
40
1
40
1
40
1
10
-15.859112511842262
20
127.10467013010786
30
-8.8817841970012523e-15
10
-19.008106877214324
20
131.04086163089318
30
-8.8817841970012523e-15
10
-19.008106877214313
20
137.4490134883672
30
-8.8817841970012523e-15
0
SPLINE
5
101
100
AcDbEntity
8
0
100
AcDbSpline
70
0
71
2
72
6
73
3
74
0
42
0.000000001
43
0.0000000001
44
0.0000000001
40
0
40
0
40
0
40
1
40
1
40
1
10
-19.008106877214313
20
137.4490134883672
30
-8.8817841970012523e-15
10
-19.008106877214313
20
144.93878056295216
30
-8.8817841970012523e-15
10
-14.986960579759479
20
148.9906280208379
30
-8.8817841970012523e-15
0
SPLINE
5
102
100
AcDbEntity
8
0
100
AcDbSpline
70
0
71
2
72
6
73
3
74
0
42
0.000000001
43
0.0000000001
44
0.0000000001
40
0
40
0
40
0
40
1
40
1
40
1
10
-14.986960579759479
20
148.9906280208379
30
-8.8817841970012523e-15
10
-10.965814282304647
20
153.04246594198048
30
-8.8817841970012523e-15
10
-3.7216111916369199
20
153.04246594198048
30
-8.8817841970012523e-15
0
SPLINE
5
103
100
AcDbEntity
8
0
100
AcDbSpline
70
0
71
2
72
6
73
3
74
0
42
0.000000001
43
0.0000000001
44
0.0000000001
40
0
40
0
40
0
40
1
40
1
40
1
10
-3.7216111916369199
20
153.04246594198048
30
-8.8817841970012523e-15
10
1.5375974875622944
20
153.04246594198048
30
-8.8817841970012523e-15
10
4.9039009314709858
20
151.27234150655568
30
-8.8817841970012523e-15
0
SPLINE
5
104
100
AcDbEntity
8
0
100
AcDbSpline
70
0
71
2
72
6
73
3
74
0
42
0.000000001
43
0.0000000001
44
0.0000000001
40
0
40
0
40
0
40
1
40
1
40
1
10
4.9039009314709858
20
151.27234150655568
30
-8.8817841970012523e-15
10
8.2702019911938862
20
149.50221707113087
30
-8.8817841970012523e-15
10
10.142646144025914
20
146.15638424642384
30
0
0
SPLINE
5
105
100
AcDbEntity
8
0
100
AcDbSpline
70
0
71
2
72
6
73
3
74
0
42
0.000000001
43
0.0000000001
44
0.0000000001
40
0
40
0
40
0
40
1
40
1
40
1
10
10.142646144025914
20
146.15638424642384
30
0
10
12.015085528486363
20
142.81054188497365
30
-8.8817841970012523e-15
10
12.015085528486363
20
137.81736065633595
30
-8.8817841970012523e-15
0
SPLINE
5
106
100
AcDbEntity
8
0
100
AcDbSpline
70
0
71
2
72
6
73
3
74
0
42
0.000000001
43
0.0000000001
44
0.0000000001
40
0
40
0
40
0
40
1
40
1
40
1
10
12.015085528486363
20
137.81736065633595
30
-8.8817841970012523e-15
10
12.015085528486363
20
132.74232556112111
30
-8.8817841970012523e-15
10
10.398445437543984
20
129.41695858724415
30
0
0
SPLINE
5
107
100
AcDbEntity
8
0
100
AcDbSpline
70
0
71
2
72
6
73
3
74
0
42
0.000000001
43
0.0000000001
44
0.0000000001
40
0
40
0
40
0
40
1
40
1
40
1
10
10.398445437543984
20
129.41695858724415
30
0
10
8.7818005782300155
20
126.09158207662404
30
-8.8817841970012523e-15
10
5.2824810248547749
20
124.02473141439259
30
-8.8817841970012523e-15
0
SPLINE
5
108
100
AcDbEntity
8
0
100
AcDbSpline
70
0
71
2
72
6
73
3
74
0
42
0.000000001
43
0.0000000001
44
0.0000000001
40
0
40
0
40
0
40
1
40
1
40
1
10
5.2824810248547749
20
124.02473141439259
30
-8.8817841970012523e-15
10
1.7831638556653262
20
121.95788075216115
30
-8.8817841970012523e-15
10
-3.476044823533897
20
121.95788075216115
30
-8.8817841970012523e-15
0
SPLINE
5
109
100
AcDbEntity
8
0
100
AcDbSpline
70
0
71
2
72
6
73
3
74
0
42
0.000000001
43
0.0000000001
44
0.0000000001
40
0
40
0
40
0
40
0.49308420186010998
40
0.49308420186010998
40
0.49308420186010998
10
-3.476044823533897
20
121.95788075216115
30
-8.8817841970012523e-15
10
-7.0984991588001485
20
121.95788075216097
30
-8.8817841970012523e-15
10
-9.9298618766091415
20
122.95296413938291
30
-8.8817841970012523e-15
0
LINE
5
110
100
AcDbEntity
8
0
100
AcDbLine
10
-9.9298618766091415
20
122.95296413938291
30
-8.8817841970012523e-15
11
8.8817841970012523e-15
21
116
31
-9.4368957093138306e-15
0
LINE
5
111
100
AcDbEntity
8
0
100
AcDbLine
10
8.8817841970012523e-15
20
116
30
-9.4368957093138306e-15
11
56.955854710599183
21
155.88091881353853
31
-8.8817841970012523e-15
0
LINE
5
112
100
AcDbEntity
8
0
100
AcDbLine
10
56.955854710599183
20
155.88091881353853
30
-8.8817841970012523e-15
11
77.064414205673955
21
155.88091881353853
31
-7.7715611723760958e-15
0
LINE
5
113
100
AcDbEntity
8
0
100
AcDbLine
10
77.064414205673955
20
155.88091881353853
30
-7.7715611723760958e-15
11
77.064414205673955
21
225.99999999999997
31
-8.8817841970012492e-15
0
LINE
5
114
100
AcDbEntity
8
0
100
AcDbLine
10
77.064414205673955
20
225.99999999999997
30
-8.8817841970012492e-15
11
64.340414205674136
21
226
31
-1.1102230246251565e-15
0
LINE
5
115
100
AcDbEntity
8
0
100
AcDbLine
10
64.340414205674136
20
226
30
-1.1102230246251565e-15
11
64.340414205674136
21
231.5
31
-8.8817841970012523e-15
0
LINE
5
116
100
AcDbEntity
8
0
100
AcDbLine
10
64.340414205674136
20
231.5
30
-8.8817841970012523e-15
11
44.540414205674139
21
231.5
31
-7.7715611723760958e-15
0
LINE
5
117
100
AcDbEntity
8
0
100
AcDbLine
10
44.540414205674139
20
231.5
30
-7.7715611723760958e-15
11
44.540414205674146
21
226
31
0
0
LINE
5
118
100
AcDbEntity
8
0
100
AcDbLine
10
44.540414205674146
20
226
30
0
11
9.8999999999998867
21
226
31
-2.2204460492503131e-15
0
LINE
5
119
100
AcDbEntity
8
0
100
AcDbLine
10
9.8999999999998867
20
226
30
-2.2204460492503131e-15
11
9.8999999999998867
21
231.5
31
-8.8817841970012523e-15
0
LINE
5
120
100
AcDbEntity
8
0
100
AcDbLine
10
9.8999999999998867
20
231.5
30
-8.8817841970012523e-15
11
-9.9000000000001087
21
231.5
31
-8.8817841970012523e-15
0
LINE
5
121
100
AcDbEntity
8
0
100
AcDbLine
10
-9.9000000000001087
20
231.5
30
-8.8817841970012523e-15
11
-9.9000000000001123
21
226
31
-8.8817841970012523e-15
0
LINE
5
122
100
AcDbEntity
8
0
100
AcDbLine
10
-9.9000000000001123
20
226
30
-8.8817841970012523e-15
11
-44.540414205673891
21
226
31
-1.1102230246251565e-14
0
LINE
5
123
100
AcDbEntity
8
0
100
AcDbLine
10
-44.540414205673891
20
226
30
-1.1102230246251565e-14
11
-44.540414205673891
21
231.5
31
0
0
LINE
5
124
100
AcDbEntity
8
0
100
AcDbLine
10
-44.540414205673891
20
231.5
30
0
11
-64.340414205673895
21
231.5
31
0
0
LINE
5
125
100
AcDbEntity
8
0
100
AcDbLine
10
-64.340414205673895
20
231.5
30
0
11
-64.340414205673895
21
226
31
-8.8817841970012523e-15
0
LINE
5
126
100
AcDbEntity
8
0
100
AcDbLine
10
-64.340414205673895
20
226
30
-8.8817841970012523e-15
11
-77.064414205673955
21
226
31
-7.7715611723760958e-15
0
LINE
5
127
100
AcDbEntity
8
0
100
AcDbLine
10
-77.064414205673955
20
226
30
-7.7715611723760958e-15
11
-77.064414205673927
21
155.88091881353853
31
-4.9303806576313238e-31
0
LINE
5
128
100
AcDbEntity
8
0
100
AcDbLine
10
-77.064414205673927
20
155.88091881353853
30
-4.9303806576313238e-31
11
-56.95585471059924
21
155.88091881353853
31
-1.5543122344752192e-14
0
LINE
5
129
100
AcDbEntity
8
0
100
AcDbLine
10
-56.95585471059924
20
155.88091881353853
30
-1.5543122344752192e-14
11
-15.859112511842262
21
127.10467013010786
31
-8.8817841970012523e-15
0
SPLINE
5
130
100
AcDbEntity
8
0
100
AcDbSpline
70
0
71
2
72
6
73
3
74
0
42
0.000000001
43
0.0000000001
44
0.0000000001
40
0
40
0
40
0
40
1
40
1
40
1
10
0.94654352485477489
20
181.8795554805547
30
-8.8817841970012523e-15
10
2.1550300818616064
20
182.85094906575978
30
-8.8817841970012523e-15
10
2.8105118971997456
20
183.17804028280079
30
0
0
LINE
5
131
100
AcDbEntity
8
0
100
AcDbLine
10
2.8105118971997456
20
183.17804028280079
30
9.7897726236693142e-32
11
11.457618425379215
21
187.64361944347772
31
5.5511151231257827e-16
0
LINE
5
132
100
AcDbEntity
8
0
100
AcDbLine
10
11.457618425379215
20
187.64361944347772
30
5.5511151231257827e-16
11
-18.496510674363972
21
198.90196491964161
31
-8.8817841970012523e-15
0
LINE
5
133
100
AcDbEntity
8
0
100
AcDbLine
10
-18.496510674363972
20
198.90196491964161
30
-8.8817841970012523e-15
11
-18.496510674363968
21
209.01365925557911
31
-8.8817841970012523e-15
0
LINE
5
134
100
AcDbEntity
8
0
100
AcDbLine
10
-18.496510674363968
20
209.01365925557911
30
-8.8817841970012523e-15
11
11.503491709821818
21
220.28666188009083
31
-6.6613381477509392e-15
0
LINE
5
135
100
AcDbEntity
8
0
100
AcDbLine
10
11.503491709821818
20
220.28666188009083
30
-6.6613381477509392e-15
11
11.503491709821812
21
210.5791347194463
31
-8.8817841970012523e-15
0
LINE
5
136
100
AcDbEntity
8
0
100
AcDbLine
10
11.503491709821812
20
210.5791347194463
30
-8.8817841970012523e-15
11
6.5512421828442715
21
209.07824208028615
31
-8.8817841970012523e-15
0
LINE
5
137
100
AcDbEntity
8
0
100
AcDbLine
10
6.5512421828442715
20
209.07824208028615
30
-8.8817841970012523e-15
11
6.5512421828442768
21
198.55375935323536
31
-8.8817841970012523e-15
0
LINE
5
138
100
AcDbEntity
8
0
100
AcDbLine
10
6.5512421828442768
20
198.55375935323536
30
-8.8817841970012523e-15
11
11.503491709821816
21
197.09154774434865
31
-8.8817841970012523e-15
0
LINE
5
139
100
AcDbEntity
8
0
100
AcDbLine
10
11.503491709821816
20
197.09154774434865
30
-8.8817841970012523e-15
11
11.503491709821812
21
177.19268490560353
31
-8.8817841970012523e-15
0
LINE
5
140
100
AcDbEntity
8
0
100
AcDbLine
10
11.503491709821812
20
177.19268490560353
30
-8.8817841970012523e-15
11
2.3356869918042324
21
172.23756481893361
31
-8.8817841970012523e-15
0
SPLINE
5
141
100
AcDbEntity
8
0
100
AcDbSpline
70
0
71
2
72
6
73
3
74
0
42
0.000000001
43
0.0000000001
44
0.0000000001
40
0
40
0
40
0
40
1
40
1
40
1
10
2.3356869918042378
20
172.23756481893361
30
-8.8817841970012523e-15
10
0.55533439933597606
20
171.29622151143849
30
-8.8817841970012523e-15
10
0.023272345655560578
20
170.55952717550099
30
0
0
SPLINE
5
142
100
AcDbEntity
8
0
100
AcDbSpline
70
0
71
2
72
6
73
3
74
0
42
0.000000001
43
0.0000000001
44
0.0000000001
40
0
40
0
40
0
40
1
40
1
40
1
10
0.023272345655560578
20
170.55952717550099
30
0
10
-0.67249744117915622
20
169.5567958522588
30
0
10
-0.67249744117915622
20
168.28803707845509
30
0
0
LINE
5
143
100
AcDbEntity
8
0
100
AcDbLine
10
-0.67249744117915622
20
168.28803707845509
30
0
11
-0.67249744117915622
21
167.46947933919728
31
0
0
LINE
5
144
100
AcDbEntity
8
0
100
AcDbLine
10
-0.67249744117915622
20
167.46947933919728
30
0
11
11.503491709821816
21
167.46947933919728
31
0
0
LINE
5
145
100
AcDbEntity
8
0
100
AcDbLine
10
11.503491709821816
20
167.46947933919728
30
0
11
11.503491709821812
21
158.15843273885548
31
-8.8817841970012523e-15
0
LINE
5
146
100
AcDbEntity
8
0
100
AcDbLine
10
11.503491709821812
20
158.15843273885548
30
-8.8817841970012523e-15
11
-18.496510674363975
21
158.15843273885548
31
-1.1102230246251565e-14
0
LINE
5
147
100
AcDbEntity
8
0
100
AcDbLine
10
-18.496510674363975
20
158.15843273885548
30
-1.1102230246251565e-14
11
-18.496510674363968
21
173.60864331014454
31
-8.8817841970012523e-15
0
SPLINE
5
148
100
AcDbEntity
8
0
100
AcDbSpline
70
0
71
2
72
6
73
3
74
0
42
0.000000001
43
0.0000000001
44
0.0000000001
40
0
40
0
40
0
40
1
40
1
40
1
10
-18.496510674363968
20
173.60864331014454
30
-8.8817841970012523e-15
10
-18.496510674363968
20
177.90604283101857
30
-8.8817841970012523e-15
10
-17.75981157005489
20
180.17753292806447
30
-8.8817841970012523e-15
0
SPLINE
5
149
100
AcDbEntity
8
0
100
AcDbSpline
70
0
71
2
72
6
73
3
74
0
42
0.000000001
43
0.0000000001
44
0.0000000001
40
0
40
0
40
0
40
1
40
1
40
1
10
-17.75981157005489
20
180.17753292806447
30
-8.8817841970012523e-15
10
-17.023112465745815
20
182.4490134883672
30
0
10
-15.027887513048054
20
183.84055783040822
30
-8.8817841970012523e-15
0
SPLINE
5
150
100
AcDbEntity
8
0
100
AcDbSpline
70
0
71
2
72
6
73
3
74
0
42
0.000000001
43
0.0000000001
44
0.0000000001
40
0
40
0
40
0
40
1
40
1
40
1
10
-15.027887513048054
20
183.84055783040822
30
-8.8817841970012523e-15
10
-13.032662560350305
20
185.23210217244923
30
0
10
-10.167724778062704
20
185.23210217244923
30
-8.8817841970012523e-15
0
SPLINE
5
151
100
AcDbEntity
8
0
100
AcDbSpline
70
0
71
2
72
6
73
3
74
0
42
0.000000001
43
0.0000000001
44
0.0000000001
40
0
40
0
40
0
40
1
40
1
40
1
10
-10.167724778062704
20
185.23210217244923
30
-8.8817841970012523e-15
10
-7.6711341637438535
20
185.23210217244923
30
0
10
-5.8600851792162745
20
184.16734387166798
30
-8.8817841970012523e-15
0
SPLINE
5
152
100
AcDbEntity
8
0
100
AcDbSpline
70
0
71
2
72
6
73
3
74
0
42
0.000000001
43
0.0000000001
44
0.0000000001
40
0
40
0
40
0
40
1
40
1
40
1
10
-5.8600851792162745
20
184.16734387166798
30
-8.8817841970012523e-15
10
-4.0490338105028867
20
183.10258557088673
30
-8.8817841970012523e-15
10
-2.923521687394981
20
181.23941113241017
30
-8.8817841970012523e-15
0
SPLINE
5
153
100
AcDbEntity
8
0
100
AcDbSpline
70
0
71
2
72
6
73
3
74
0
42
0.000000001
43
0.0000000001
44
0.0000000001
40
0
40
0
40
0
40
1
40
1
40
1
10
-2.923521687394981
20
181.23941113241017
30
-8.8817841970012523e-15
10
-2.2072884339159771
20
180.05187680013478
30
-8.8817841970012523e-15
10
-1.7366167801684229
20
177.98374821431935
30
-8.8817841970012523e-15
0
SPLINE
5
154
100
AcDbEntity
8
0
100
AcDbSpline
70
0
71
2
72
6
73
3
74
0
42
0.000000001
43
0.0000000001
44
0.0000000001
40
0
40
0
40
0
40
1
40
1
40
1
10
-1.7366167801684229
20
177.98374821431935
30
-8.8817841970012523e-15
10
-1.1834546822375103
20
179.6400420833379
30
-8.8817841970012523e-15
10
-0.63061206520259816
20
180.3968780208379
30
-8.8817841970012523e-15
0
SPLINE
5
155
100
AcDbEntity
8
0
100
AcDbSpline
70
0
71
2
72
6
73
3
74
0
42
0.000000001
43
0.0000000001
44
0.0000000001
40
0
40
0
40
0
40
1
40
1
40
1
10
-0.63061206520259816
20
180.3968780208379
30
-8.8817841970012523e-15
10
-0.26194064796627003
20
180.90816189534962
30
-8.8817841970012523e-15
10
0.94654352485477489
20
181.8795554805547
30
-8.8817841970012523e-15
0
LWPOLYLINE
5
156
100
AcDbEntity
8
0
100
AcDbPolyline
90
3
70
1
43
0.0
10
0.064201663129919151
20
200.5671947170049
10
-10.72024791420162
20
203.84398152120411
10
0.064201663129925812
20
207.15529133565724
0
LINE
5
157
100
AcDbEntity
8
0
100
AcDbLine
10
-12.439210106737022
20
171.5417926479131
30
-8.8817841970012523e-15
11
-12.439210106737022
21
167.46947933919728
31
-8.8817841970012523e-15
0
LINE
5
158
100
AcDbEntity
8
0
100
AcDbLine
10
-12.439210106737022
20
167.46947933919728
30
-8.8817841970012523e-15
11
-6.3409849900072857
21
167.46947933919728
31
-8.8817841970012523e-15
0
LINE
5
159
100
AcDbEntity
8
0
100
AcDbLine
10
-6.3409849900072857
20
167.46947933919728
30
-8.8817841970012523e-15
11
-6.3409849900072857
21
171.37807537801564
31
-8.8817841970012523e-15
0
SPLINE
5
160
100
AcDbEntity
8
0
100
AcDbSpline
70
0
71
2
72
6
73
3
74
0
42
0.000000001
43
0.0000000001
44
0.0000000001
40
0
40
0
40
0
40
1
40
1
40
1
10
-6.3409849900072857
20
171.37807537801564
30
-8.8817841970012523e-15
10
-6.3409849900072857
20
172.01245953328907
30
-8.8817841970012523e-15
10
-6.7502614754504009
20
173.83373905904591
30
-8.8817841970012523e-15
0
SPLINE
5
161
100
AcDbEntity
8
0
100
AcDbSpline
70
0
71
2
72
6
73
3
74
0
42
0.000000001
43
0.0000000001
44
0.0000000001
40
0
40
0
40
0
40
1
40
1
40
1
10
-6.7502614754504009
20
173.83373905904591
30
-8.8817841970012523e-15
10
-6.9344374436205651
20
174.75461651571095
30
-8.8817841970012523e-15
10
-7.6915976303881433
20
175.33783604390919
30
0
0
SPLINE
5
162
100
AcDbEntity
8
0
100
AcDbSpline
70
0
71
2
72
6
73
3
74
0
42
0.000000001
43
0.0000000001
44
0.0000000001
40
0
40
0
40
0
40
1
40
1
40
1
10
-7.6915976303881433
20
175.33783604390919
30
0
10
-8.4487602013415142
20
175.92105557210743
30
-8.8817841970012523e-15
10
-9.4310256737536236
20
175.92105557210743
30
-8.8817841970012523e-15
0
SPLINE
5
163
100
AcDbEntity
8
0
100
AcDbSpline
70
0
71
2
72
6
73
3
74
0
42
0.000000001
43
0.0000000001
44
0.0000000001
40
0
40
0
40
0
40
1
40
1
40
1
10
-9.4310256737536236
20
175.92105557210743
30
-8.8817841970012523e-15
10
-10.883958031541709
20
175.92105557210743
30
0
10
-11.661584069139364
20
175.0001781154424
30
-8.8817841970012523e-15
0
SPLINE
5
164
100
AcDbEntity
8
0
100
AcDbSpline
70
0
71
2
72
6
73
3
74
0
42
0.000000001
43
0.0000000001
44
0.0000000001
40
0
40
0
40
0
40
1
40
1
40
1
10
-11.661584069139364
20
175.0001781154424
30
-8.8817841970012523e-15
10
-12.439210106737022
20
174.07931019552052
30
-8.8817841970012523e-15
10
-12.439210106737022
20
171.5417926479131
30
-8.8817841970012523e-15
0
SPLINE
5
165
100
AcDbEntity
8
0
100
AcDbSpline
70
0
71
2
72
6
73
3
74
0
42
0.000000001
43
0.0000000001
44
0.0000000001
40
0
40
0
40
0
40
1
40
1
40
1
10
-11.989006688005331
20
137.42854763753712
30
-8.8817841970012523e-15
10
-11.989006688005331
20
134.62500263936818
30
-8.8817841970012523e-15
10
-10.004012276536825
20
132.92649914510548
30
-8.8817841970012523e-15
0
SPLINE
5
166
100
AcDbEntity
8
0
100
AcDbSpline
70
0
71
2
72
6
73
3
74
0
42
0.000000001
43
0.0000000001
44
0.0000000001
40
0
40
0
40
0
40
1
40
1
40
1
10
-10.004012276536825
20
132.92649914510548
30
-8.8817841970012523e-15
10
-8.0190202492541101
20
131.22800518758595
30
0
10
-3.4351178902453228
20
131.22800518758595
30
-8.8817841970012523e-15
0
SPLINE
5
167
100
AcDbEntity
8
0
100
AcDbSpline
70
0
71
2
72
6
73
3
74
0
42
0.000000001
43
0.0000000001
44
0.0000000001
40
0
40
0
40
0
40
1
40
1
40
1
10
-3.4351178902453228
20
131.22800518758595
30
-8.8817841970012523e-15
10
1.1078551512891011
20
131.22800518758595
30
-8.8817841970012523e-15
10
3.0928495627576069
20
132.91627575643361
30
-8.8817841970012523e-15
0
SPLINE
5
168
100
AcDbEntity
8
0
100
AcDbSpline
70
0
71
2
72
6
73
3
74
0
42
0.000000001
43
0.0000000001
44
0.0000000001
40
0
40
0
40
0
40
1
40
1
40
1
10
3.0928495627576069
20
132.91627575643361
30
-8.8817841970012523e-15
10
5.0778439742261128
20
134.6045367885381
30
-8.8817841970012523e-15
10
5.0778439742261128
20
137.51040150411427
30
-8.8817841970012523e-15
0
SPLINE
5
169
100
AcDbEntity
8
0
100
AcDbSpline
70
0
71
2
72
6
73
3
74
0
42
0.000000001
43
0.0000000001
44
0.0000000001
40
0
40
0
40
0
40
1
40
1
40
1
10
5.0778439742261128
20
137.51040150411427
30
-8.8817841970012523e-15
10
5.0778439742261128
20
140.49812962301075
30
-8.8817841970012523e-15
10
3.1337788802319722
20
142.13523556478322
30
-8.8817841970012523e-15
0
SPLINE
5
170
100
AcDbEntity
8
0
100
AcDbSpline
70
0
71
2
72
6
73
3
74
0
42
0.000000001
43
0.0000000001
44
0.0000000001
40
0
40
0
40
0
40
1
40
1
40
1
10
3.1337788802319722
20
142.13523556478322
30
-8.8817841970012523e-15
10
1.1897137862378315
20
143.77234150655568
30
-8.8817841970012523e-15
10
-3.8443943756884336
20
143.77234150655568
30
0
0
SPLINE
5
171
100
AcDbEntity
8
0
100
AcDbSpline
70
0
71
2
72
6
73
3
74
0
42
0.000000001
43
0.0000000001
44
0.0000000001
40
0
40
0
40
0
40
1
40
1
40
1
10
-3.8443943756884336
20
143.77234150655568
30
0
10
-8.0804106491869696
20
143.77234150655568
30
-8.8817841970012523e-15
10
-10.034708668596151
20
142.06361462362111
30
-8.8817841970012523e-15
0
SPLINE
5
172
100
AcDbEntity
8
0
100
AcDbSpline
70
0
71
2
72
6
73
3
74
0
42
0.000000001
43
0.0000000001
44
0.0000000001
40
0
40
0
40
0
40
1
40
1
40
1
10
-10.034708668596151
20
142.06361462362111
30
-8.8817841970012523e-15
10
-11.989006688005331
20
140.35487820394337
30
-8.8817841970012523e-15
10
-11.989006688005331
20
137.42854763753712
30
-8.8817841970012523e-15
0
LINE
5
173
100
AcDbEntity
8
0
100
AcDbLine
10
-9.9298618766091415
20
122.95296413938296
30
-8.8817841970012523e-15
11
-15.85911251184227
21
127.10467013010788
31
-8.8817841970012523e-15
0
ENDSEC
0
SECTION
2
OBJECTS
0
DICTIONARY
5
C
100
AcDbDictionary
3
ACAD_GROUP
350
D
3
ACAD_MLINESTYLE
350
17
0
DICTIONARY
5
D
100
AcDbDictionary
0
DICTIONARY
5
1A
330
C
100
AcDbDictionary
0
DICTIONARY
5
17
100
AcDbDictionary
0
ENDSEC
0
EOF
